0
SECTION
2
HEADER
9
$INSUNITS
70
4
9
$ACADVER
1
AC1014
9
$HANDSEED
5
FFFF
0
ENDSEC
0
SECTION
2
TABLES
0
TABLE
2
VPORT
5
8
100
AcDbSymbolTable
0
ENDTAB
0
TABLE
2
LTYPE
5
5
100
AcDbSymbolTable
0
LTYPE
5
14
100
AcDbSymbolTableRecord
100
AcDbLinetypeTableRecord
2
BYBLOCK
70
0
0
LTYPE
5
15
100
AcDbSymbolTableRecord
100
AcDbLinetypeTableRecord
2
BYLAYER
70
0
0
ENDTAB
0
TABLE
2
LAYER
5
2
100
AcDbSymbolTable
70
2
0
LAYER
5
50
100
AcDbSymbolTableRecord
100
AcDbLayerTableRecord
2
0
70
0
6
CONTINUOUS
0
ENDTAB
0
TABLE
2
STYLE
5
3
100
AcDbSymbolTable
70
1
0
STYLE
5
11
100
AcDbSymbolTableRecord
100
AcDbTextStyleTableRecord
2
STANDARD
70
0
0
ENDTAB
0
TABLE
2
VIEW
5
6
100
AcDbSymbolTable
70
0
0
ENDTAB
0
TABLE
2
UCS
5
7
100
AcDbSymbolTable
70
0
0
ENDTAB
0
TABLE
2
APPID
5
9
100
AcDbSymbolTable
70
2
0
APPID
5
12
100
AcDbSymbolTableRecord
100
AcDbRegAppTableRecord
2
ACAD
70
0
0
ENDTAB
0
TABLE
2
DIMSTYLE
5
A
100
AcDbSymbolTable
70
1
0
ENDTAB
0
TABLE
2
BLOCK_RECORD
5
1
100
AcDbSymbolTable
70
1
0
BLOCK_RECORD
5
1F
100
AcDbSymbolTableRecord
100
AcDbBlockTableRecord
2
*MODEL_SPACE
0
BLOCK_RECORD
5
1B
100
AcDbSymbolTableRecord
100
AcDbBlockTableRecord
2
*PAPER_SPACE
0
ENDTAB
0
ENDSEC
0
SECTION
2
BLOCKS
0
BLOCK
5
20
100
AcDbEntity
100
AcDbBlockBegin
2
*MODEL_SPACE
0
ENDBLK
5
21
100
AcDbEntity
100
AcDbBlockEnd
0
BLOCK
5
1C
100
AcDbEntity
100
AcDbBlockBegin
2
*PAPER_SPACE
0
ENDBLK
5
1D
100
AcDbEntity
100
AcDbBlockEnd
0
ENDSEC
0
SECTION
2
ENTITIES
0
ARC
5
100
100
AcDbEntity
8
0
100
AcDbCircle
10
-190.2647301131955
20
20.9599933456564
30
0
40
15.000000000000036
210
0
220
0
230
1
100
AcDbArc
50
270
51
314.99999999999983
0
LINE
5
101
100
AcDbEntity
8
0
100
AcDbLine
10
-179.65812839539728
20
10.353391627858127
30
0
11
-169.65812839539726
21
20.353391627858155
31
0
0
ARC
5
102
100
AcDbEntity
8
0
100
AcDbCircle
10
-180.26473011319541
20
30.959993345656365
30
0
40
14.999999999999957
210
0
220
0
230
1
100
AcDbArc
50
-45.000000000000156
51
45.00000000000022
0
LINE
5
103
100
AcDbEntity
8
0
100
AcDbLine
10
-169.65812839539728
20
41.566595063454571
30
0
11
-179.65812839539728
21
51.566595063454592
31
0
0
ARC
5
104
100
AcDbEntity
8
0
100
AcDbCircle
10
-190.2647301131955
20
40.959993345656358
30
0
40
15.000000000000002
210
0
220
-0
230
1
100
AcDbArc
50
45.000000000000064
51
90
0
LINE
5
105
100
AcDbEntity
8
0
100
AcDbLine
10
-190.2647301131955
20
55.959993345656365
30
0
11
-297.86749712413047
21
55.959993345656365
31
0
0
ARC
5
106
100
AcDbEntity
8
0
100
AcDbCircle
10
-297.86749712413052
20
34.959993345656429
30
0
40
20.999999999999936
210
0
220
-0
230
1
100
AcDbArc
50
89.999999999999844
51
144.66985708941473
0
SPLINE
5
107
100
AcDbEntity
8
0
100
AcDbSpline
70
4
71
3
72
10
73
6
74
0
42
0.000000001
43
0.0000000001
44
0.0000000001
40
0.15436339127718962
40
0.15436339127718962
40
0.15436339127718962
40
0.15436339127718962
40
0.33506895632704364
40
0.33506895632704364
40
0.62629505993560242
40
0.62629505993560242
40
0.62629505993560242
40
0.62629505993560242
41
1
41
1
41
1
41
1
41
1
41
1
10
-292.48591806854768
20
48.167747259849023
30
0
10
-295.38999458279943
20
48.095510501396461
30
0
10
-298.28125608465609
20
47.994980266920429
30
0
10
-305.75122076533916
20
47.67383890599789
30
0
10
-310.3596693251593
20
47.415479137860466
30
0
10
-314.99999999999989
20
47.104018428318284
30
0
0
LINE
5
108
100
AcDbEntity
8
0
100
AcDbLine
10
-292.48591806854768
20
48.167747259849023
30
0
11
-288.48757830641728
21
48.248661191702411
31
0
0
SPLINE
5
109
100
AcDbEntity
8
0
100
AcDbSpline
70
4
71
3
72
10
73
6
74
0
42
0.000000001
43
0.0000000001
44
0.0000000001
40
0
40
0
40
0
40
0
40
0.0018507131853151158
40
0.0018507131853151158
40
0.071562636676061234
40
0.071562636676061234
40
0.071562636676061234
40
0.071562636676061234
41
1
41
1
41
1
41
1
41
1
41
1
10
-285.02707861744062
20
48.287278208557531
30
0
10
-285.03303732990514
20
48.287238025529973
30
0
10
-285.08662773770936
20
48.286873258110454
30
0
10
-286.2401403217898
20
48.278831530095268
30
0
10
-287.36419403549803
20
48.266051415745551
30
0
10
-288.48757830641722
20
48.248661191702411
30
0
0
LINE
5
110
100
AcDbEntity
8
0
100
AcDbLine
10
-285.02707861744062
20
48.287278208557531
30
0
11
-285.02420742549197
21
48.287296555341584
31
0
0
SPLINE
5
111
100
AcDbEntity
8
0
100
AcDbSpline
70
4
71
3
72
10
73
6
74
0
42
0.000000001
43
0.0000000001
44
0.0000000001
40
0
40
0
40
0
40
0
40
0.89680040757376966
40
0.89680040757376966
40
2.0025753093629581
40
2.0025753093629581
40
2.0025753093629581
40
2.0025753093629581
41
1
41
1
41
1
41
1
41
1
41
1
10
-255.75656325741471
20
47.037241243807166
30
0
10
-258.62865907299943
20
47.34536570673945
30
0
10
-261.45003280515584
20
47.612240923196154
30
0
10
-272.64129004149106
20
48.224305096448973
30
0
10
-278.89037329511069
20
48.32741361616705
30
0
10
-285.02420742549197
20
48.287296555341584
30
0
0
SPLINE
5
112
100
AcDbEntity
8
0
100
AcDbSpline
70
4
71
3
72
8
73
4
74
0
42
0.000000001
43
0.0000000001
44
0.0000000001
40
1.5731264021962319
40
1.5731264021962319
40
1.5731264021962319
40
1.5731264021962319
40
2.51380647433598
40
2.51380647433598
40
2.51380647433598
40
2.51380647433598
41
1
41
1
41
1
41
1
10
-243.11880086290131
20
45.161054869986842
30
0
10
-247.37409912892355
20
46.005500587455415
30
0
10
-251.75037905901362
20
46.61192490022475
30
0
10
-255.75656328937276
20
47.037240939925667
30
0
0
LINE
5
113
100
AcDbEntity
8
0
100
AcDbLine
10
-243.11880086290131
20
45.161054869986842
30
0
11
-239.26935286772064
21
44.319493271174615
31
0
0
SPLINE
5
114
100
AcDbEntity
8
0
100
AcDbSpline
70
4
71
3
72
10
73
6
74
0
42
0.000000001
43
0.0000000001
44
0.0000000001
40
0
40
0
40
0
40
0
40
0.92019515610012126
40
0.92019515610012126
40
1.285950117873643
40
1.285950117873643
40
1.285950117873643
40
1.285950117873643
41
1
41
1
41
1
41
1
41
1
41
1
10
-225.24128269485374
20
38.813875001669047
30
0
10
-227.72254700475776
20
40.490100805934389
30
0
10
-230.83010242571186
20
41.8634881758788
30
0
10
-236.09425382850276
20
43.507069521057275
30
0
10
-237.66132586550324
20
43.932586891975461
30
0
10
-239.26935286772064
20
44.319493271174608
30
0
0
ARC
5
115
100
AcDbEntity
8
0
100
AcDbCircle
10
-226.07789677909196
20
37.568856913641355
30
0
40
1.5000000000029245
210
0
220
-0
230
1
100
AcDbArc
50
55.394756198154994
51
56.100106241324866
0
SPLINE
5
116
100
AcDbEntity
8
0
100
AcDbSpline
70
4
71
3
72
10
73
6
74
0
42
0.000000001
43
0.0000000001
44
0.0000000001
40
0
40
0
40
0
40
0
40
0.33797923578936778
40
0.33797923578936778
40
1.2393648198519569
40
1.2393648198519569
40
1.2393648198519569
40
1.2393648198519569
41
1
41
1
41
1
41
1
41
1
41
1
10
-220.6347665652155
20
33.536029440874451
30
0
10
-221.03594814230405
20
34.583273305670161
30
0
10
-221.60116581919789
20
35.397628908334269
30
0
10
-223.20661362818456
20
37.406756340676758
30
0
10
-224.58468583743652
20
38.369076211738438
30
0
10
-225.2260181629326
20
38.803483506315914
30
0
0
LINE
5
117
100
AcDbEntity
8
0
100
AcDbLine
10
-220.6347665652155
20
33.536029440874451
30
0
11
-220.63476656521541
21
30.959993345656144
31
0
0
LINE
5
118
100
AcDbEntity
8
0
100
AcDbLine
10
-220.63476656521541
20
30.959993345656144
30
0
11
-220.63476673313264
21
28.383957250437845
31
0
0
SPLINE
5
119
100
AcDbEntity
8
0
100
AcDbSpline
70
4
71
3
72
10
73
6
74
0
42
0.000000001
43
0.0000000001
44
0.0000000001
40
0
40
0
40
0
40
0
40
0.33797923578936778
40
0.33797923578936778
40
1.2393648198519569
40
1.2393648198519569
40
1.2393648198519569
40
1.2393648198519569
41
1
41
1
41
1
41
1
41
1
41
1
10
-220.63476673313264
20
28.383957250437845
30
0
10
-221.03594837848505
20
27.336713411792886
30
0
10
-221.60116610846211
20
26.52235784597211
30
0
10
-223.20661404841235
20
24.513230518279642
30
0
10
-224.58468632039251
20
23.550910737046653
30
0
10
-225.22601867420514
20
23.116503484273991
30
0
0
ARC
5
120
100
AcDbEntity
8
0
100
AcDbCircle
10
-226.07789720982325
20
24.351130132385592
30
0
40
1.4999977217073694
210
-0
220
0
230
1
100
AcDbArc
50
303.89989002385545
51
304.60524006707726
0
SPLINE
5
121
100
AcDbEntity
8
0
100
AcDbSpline
70
4
71
3
72
10
73
6
74
0
42
0.000000001
43
0.0000000001
44
0.0000000001
40
0
40
0
40
0
40
0
40
0.92019515610012126
40
0.92019515610012126
40
1.2859501178736439
40
1.2859501178736439
40
1.2859501178736439
40
1.2859501178736439
41
1
41
1
41
1
41
1
41
1
41
1
10
-225.24128320680362
20
23.106111989915867
30
0
10
-227.72254762597126
20
21.429886347390045
30
0
10
-230.83010313644863
20
20.05649918000951
30
0
10
-236.09425464637525
20
18.41291817797115
30
0
10
-237.66132671111279
20
17.987400909201476
30
0
10
-239.26935373855042
20
17.600494634820482
30
0
0
LINE
5
122
100
AcDbEntity
8
0
100
AcDbLine
10
-239.26935373855042
20
17.600494634820482
30
0
11
-243.11880178860687
21
16.758933286928084
31
0
0
SPLINE
5
123
100
AcDbEntity
8
0
100
AcDbSpline
70
4
71
3
72
8
73
4
74
0
42
0.000000001
43
0.0000000001
44
0.0000000001
40
1.5731264021962323
40
1.5731264021962323
40
1.5731264021962323
40
1.5731264021962323
40
2.51380647433598
40
2.51380647433598
40
2.51380647433598
40
2.51380647433598
41
1
41
1
41
1
41
1
10
-243.1188017885878
20
16.758933286931882
30
0
10
-247.37410010965453
20
15.914487846842016
30
0
10
-251.75038007927401
20
15.308063819337505
30
0
10
-255.75656433735708
20
14.882748040776965
30
0
0
SPLINE
5
124
100
AcDbEntity
8
0
100
AcDbSpline
70
4
71
3
72
10
73
6
74
0
42
0.000000001
43
0.0000000001
44
0.0000000001
40
0
40
0
40
0
40
0
40
0.89680040757376966
40
0.89680040757376966
40
2.0025753093629581
40
2.0025753093629581
40
2.0025753093629581
40
2.0025753093629581
41
1
41
1
41
1
41
1
41
1
41
1
10
-255.75656430539902
20
14.882747736895467
30
0
10
-258.62866014106862
20
14.574623461178788
30
0
10
-261.45003389062106
20
14.307748428631415
30
0
10
-272.64129116685331
20
13.69568498487304
30
0
10
-278.89037442719393
20
13.592576872497188
30
0
10
-285.02420855496024
20
13.63269433315244
30
0
0
LINE
5
125
100
AcDbEntity
8
0
100
AcDbLine
10
-285.02420855496024
20
13.63269433315244
30
0
11
-285.0270797469077
21
13.632712680123653
31
0
0
SPLINE
5
126
100
AcDbEntity
8
0
100
AcDbSpline
70
4
71
3
72
10
73
6
74
0
42
0.000000001
43
0.0000000001
44
0.0000000001
40
0
40
0
40
0
40
0
40
0.0018507131853151158
40
0.0018507131853151158
40
0.071562636676061761
40
0.071562636676061761
40
0.071562636676061761
40
0.071562636676061761
41
1
41
1
41
1
41
1
41
1
41
1
10
-285.0270797469077
20
13.632712680123653
30
0
10
-285.03303845936961
20
13.632752863539626
30
0
10
-285.08662886715001
20
13.633117634452399
30
0
10
-286.24014145070623
20
13.641159437658516
30
0
10
-287.36419516358148
20
13.653939625278898
30
0
10
-288.48757943336716
20
13.671329922549083
30
0
0
LINE
5
127
100
AcDbEntity
8
0
100
AcDbLine
10
-288.48757943336716
20
13.671329922549083
30
0
11
-292.48591919022311
21
13.752244115031511
31
0
0
SPLINE
5
128
100
AcDbEntity
8
0
100
AcDbSpline
70
4
71
3
72
10
73
6
74
0
42
0.000000001
43
0.0000000001
44
0.0000000001
40
0.15436339127719015
40
0.15436339127719015
40
0.15436339127719015
40
0.15436339127719015
40
0.33506895632704364
40
0.33506895632704364
40
0.62629503792079144
40
0.62629503792079144
40
0.62629503792079144
40
0.62629503792079144
41
1
41
1
41
1
41
1
41
1
41
1
10
-292.48591919022323
20
13.752244115031516
30
0
10
-295.38999569976625
20
13.824481062784315
30
0
10
-298.28125719506988
20
13.925011485725257
30
0
10
-305.75122150635838
20
14.246153318591613
30
0
10
-310.35966970106085
20
14.50451336304763
30
0
10
-314.99999999999989
20
14.815974343493963
30
0
0
ARC
5
129
100
AcDbEntity
8
0
100
AcDbCircle
10
-297.86749281409402
20
26.959993345656432
30
0
40
20.99999999999995
210
0
220
0
230
1
100
AcDbArc
50
215.33012257573321
51
269.99999999999983
0
LINE
5
130
100
AcDbEntity
8
0
100
AcDbLine
10
-297.86749281409408
20
5.9599933456563665
30
0
11
-190.2647301131955
21
5.9599933456563647
31
0
0
CIRCLE
5
131
100
AcDbEntity
8
0
100
AcDbCircle
10
-185
20
30.959993345656365
30
0
40
10
210
0
220
-0
230
1
0
ARC
5
132
100
AcDbEntity
8
0
100
AcDbCircle
10
-190.2647301131955
20
20.959993345656365
30
0
40
15.000000000000002
210
-0
220
0
230
1
100
AcDbArc
50
270
51
314.99999999999994
0
LINE
5
133
100
AcDbEntity
8
0
100
AcDbLine
10
-169.65812839539726
20
20.353391627858155
30
0
11
-179.65812839539728
21
10.353391627858134
31
0
0
CIRCLE
5
134
100
AcDbEntity
8
0
100
AcDbCircle
10
-185
20
30.959993345656365
30
0
40
10
210
0
220
0
230
1
0
LINE
5
135
100
AcDbEntity
8
0
100
AcDbLine
10
-190.2647301131955
20
5.959993345656363
30
0
11
-297.86749281409391
21
5.9599933456563647
31
0
0
ARC
5
136
100
AcDbEntity
8
0
100
AcDbCircle
10
-297.86749281409391
20
26.959993345656365
30
0
40
21
210
0
220
0
230
1
100
AcDbArc
50
215.3301225757329
51
270
0
SPLINE
5
137
100
AcDbEntity
8
0
100
AcDbSpline
70
4
71
3
72
10
73
6
74
0
42
0.000000001
43
0.0000000001
44
0.0000000001
40
-0.62629503792079144
40
-0.62629503792079144
40
-0.62629503792079144
40
-0.62629503792079144
40
-0.33506895632704364
40
-0.33506895632704364
40
-0.15436339127719015
40
-0.15436339127719015
40
-0.15436339127719015
40
-0.15436339127719015
41
1
41
1
41
1
41
1
41
1
41
1
10
-314.99999999999989
20
14.815974343493963
30
0
10
-310.3596697010608
20
14.504513363047629
30
0
10
-305.75122150635838
20
14.246153318591613
30
0
10
-298.28125719506988
20
13.925011485725257
30
0
10
-295.38999569976625
20
13.824481062784315
30
0
10
-292.48591919022323
20
13.752244115031516
30
0
0
LINE
5
138
100
AcDbEntity
8
0
100
AcDbLine
10
-292.48591919022317
20
13.752244115031518
30
0
11
-288.48757943336716
21
13.671329922549083
31
0
0
SPLINE
5
139
100
AcDbEntity
8
0
100
AcDbSpline
70
4
71
3
72
10
73
6
74
0
42
0.000000001
43
0.0000000001
44
0.0000000001
40
-0.071562636676061761
40
-0.071562636676061761
40
-0.071562636676061761
40
-0.071562636676061761
40
-0.0018507131853151158
40
-0.0018507131853151158
40
0
40
0
40
0
40
0
41
1
41
1
41
1
41
1
41
1
41
1
10
-288.48757943336716
20
13.671329922549083
30
0
10
-287.36419516358148
20
13.653939625278898
30
0
10
-286.24014145070623
20
13.641159437658516
30
0
10
-285.08662886715001
20
13.633117634452399
30
0
10
-285.03303845936961
20
13.632752863539626
30
0
10
-285.0270797469077
20
13.632712680123653
30
0
0
LINE
5
140
100
AcDbEntity
8
0
100
AcDbLine
10
-285.0270797469077
20
13.632712680123651
30
0
11
-285.02420855496024
21
13.63269433315244
31
0
0
SPLINE
5
141
100
AcDbEntity
8
0
100
AcDbSpline
70
4
71
3
72
10
73
6
74
0
42
0.000000001
43
0.0000000001
44
0.0000000001
40
-2.0025753093629581
40
-2.0025753093629581
40
-2.0025753093629581
40
-2.0025753093629581
40
-0.89680040757376966
40
-0.89680040757376966
40
0
40
0
40
0
40
0
41
1
41
1
41
1
41
1
41
1
41
1
10
-285.02420855496024
20
13.63269433315244
30
0
10
-278.89037442719393
20
13.592576872497188
30
0
10
-272.64129116685331
20
13.69568498487304
30
0
10
-261.45003389062106
20
14.307748428631415
30
0
10
-258.62866014106862
20
14.574623461178788
30
0
10
-255.75656430539902
20
14.882747736895467
30
0
0
SPLINE
5
142
100
AcDbEntity
8
0
100
AcDbSpline
70
4
71
3
72
8
73
4
74
0
42
0.000000001
43
0.0000000001
44
0.0000000001
40
-2.51380647433598
40
-2.51380647433598
40
-2.51380647433598
40
-2.51380647433598
40
-1.5731264021962323
40
-1.5731264021962323
40
-1.5731264021962323
40
-1.5731264021962323
41
1
41
1
41
1
41
1
10
-255.75656433735708
20
14.882748040776965
30
0
10
-251.75038007927401
20
15.308063819337505
30
0
10
-247.37410010965453
20
15.914487846842016
30
0
10
-243.1188017885878
20
16.758933286931882
30
0
0
LINE
5
143
100
AcDbEntity
8
0
100
AcDbLine
10
-243.11880178858775
20
16.758933286931882
30
0
11
-239.26935373855042
21
17.600494634820482
31
0
0
SPLINE
5
144
100
AcDbEntity
8
0
100
AcDbSpline
70
4
71
3
72
10
73
6
74
0
42
0.000000001
43
0.0000000001
44
0.0000000001
40
-1.2859501178736439
40
-1.2859501178736439
40
-1.2859501178736439
40
-1.2859501178736439
40
-0.92019515610012126
40
-0.92019515610012126
40
0
40
0
40
0
40
0
41
1
41
1
41
1
41
1
41
1
41
1
10
-239.26935373855042
20
17.600494634820482
30
0
10
-237.66132671111279
20
17.987400909201469
30
0
10
-236.09425464637525
20
18.41291817797115
30
0
10
-230.83010313644863
20
20.05649918000951
30
0
10
-227.72254762597126
20
21.429886347390045
30
0
10
-225.24128320680362
20
23.106111989915867
30
0
0
ARC
5
145
100
AcDbEntity
8
0
100
AcDbCircle
10
-226.07789720982032
20
24.351130132381407
30
0
40
1.4999977217022564
210
-0
220
0
230
1
100
AcDbArc
50
303.89989002385067
51
304.60524006707647
0
SPLINE
5
146
100
AcDbEntity
8
0
100
AcDbSpline
70
4
71
3
72
10
73
6
74
0
42
0.000000001
43
0.0000000001
44
0.0000000001
40
-1.2393648198519569
40
-1.2393648198519569
40
-1.2393648198519569
40
-1.2393648198519569
40
-0.33797923578936778
40
-0.33797923578936778
40
0
40
0
40
0
40
0
41
1
41
1
41
1
41
1
41
1
41
1
10
-225.22601867420514
20
23.116503484273991
30
0
10
-224.58468632039251
20
23.550910737046653
30
0
10
-223.20661404841235
20
24.513230518279642
30
0
10
-221.60116610846211
20
26.52235784597211
30
0
10
-221.03594837848505
20
27.336713411792886
30
0
10
-220.63476673313264
20
28.383957250437845
30
0
0
LINE
5
147
100
AcDbEntity
8
0
100
AcDbLine
10
-220.63476673313264
20
28.383957250437845
30
0
11
-220.63476656521541
21
30.959993345656144
31
0
0
LINE
5
148
100
AcDbEntity
8
0
100
AcDbLine
10
-220.63476656521541
20
30.959993345656144
30
0
11
-220.6347665652155
21
33.536029440874451
31
0
0
SPLINE
5
149
100
AcDbEntity
8
0
100
AcDbSpline
70
4
71
3
72
10
73
6
74
0
42
0.000000001
43
0.0000000001
44
0.0000000001
40
0
40
0
40
0
40
0
40
0.33797923578936778
40
0.33797923578936778
40
1.2393648198519569
40
1.2393648198519569
40
1.2393648198519569
40
1.2393648198519569
41
1
41
1
41
1
41
1
41
1
41
1
10
-220.6347665652155
20
33.536029440874451
30
0
10
-221.03594814230405
20
34.583273305670161
30
0
10
-221.60116581919789
20
35.397628908334269
30
0
10
-223.20661362818456
20
37.406756340676758
30
0
10
-224.58468583743652
20
38.369076211738438
30
0
10
-225.2260181629326
20
38.803483506315914
30
0
0
ARC
5
150
100
AcDbEntity
8
0
100
AcDbCircle
10
-226.07789677907905
20
37.568856913660284
30
0
40
1.4999999999800218
210
0
220
-0
230
1
100
AcDbArc
50
55.394756198150048
51
56.100106241330693
0
SPLINE
5
151
100
AcDbEntity
8
0
100
AcDbSpline
70
4
71
3
72
10
73
6
74
0
42
0.000000001
43
0.0000000001
44
0.0000000001
40
0
40
0
40
0
40
0
40
0.92019515610012126
40
0.92019515610012126
40
1.285950117873643
40
1.285950117873643
40
1.285950117873643
40
1.285950117873643
41
1
41
1
41
1
41
1
41
1
41
1
10
-225.24128269485374
20
38.813875001669047
30
0
10
-227.72254700475776
20
40.490100805934389
30
0
10
-230.83010242571186
20
41.8634881758788
30
0
10
-236.09425382850276
20
43.507069521057275
30
0
10
-237.66132586550324
20
43.932586891975475
30
0
10
-239.26935286772064
20
44.319493271174608
30
0
0
LINE
5
152
100
AcDbEntity
8
0
100
AcDbLine
10
-239.26935286772064
20
44.319493271174608
30
0
11
-243.11880086292049
21
45.16105486999065
31
0
0
SPLINE
5
153
100
AcDbEntity
8
0
100
AcDbSpline
70
4
71
3
72
8
73
4
74
0
42
0.000000001
43
0.0000000001
44
0.0000000001
40
1.5731264021962319
40
1.5731264021962319
40
1.5731264021962319
40
1.5731264021962319
40
2.51380647433598
40
2.51380647433598
40
2.51380647433598
40
2.51380647433598
41
1
41
1
41
1
41
1
10
-243.11880086290131
20
45.161054869986842
30
0
10
-247.37409912892355
20
46.005500587455415
30
0
10
-251.75037905901362
20
46.61192490022475
30
0
10
-255.75656328937276
20
47.037240939925667
30
0
0
SPLINE
5
154
100
AcDbEntity
8
0
100
AcDbSpline
70
4
71
3
72
10
73
6
74
0
42
0.000000001
43
0.0000000001
44
0.0000000001
40
0
40
0
40
0
40
0
40
0.89680040757376966
40
0.89680040757376966
40
2.0025753093629581
40
2.0025753093629581
40
2.0025753093629581
40
2.0025753093629581
41
1
41
1
41
1
41
1
41
1
41
1
10
-255.75656325741471
20
47.037241243807166
30
0
10
-258.62865907299943
20
47.34536570673945
30
0
10
-261.45003280515584
20
47.612240923196154
30
0
10
-272.64129004149106
20
48.224305096448973
30
0
10
-278.89037329511069
20
48.32741361616705
30
0
10
-285.02420742549197
20
48.287296555341584
30
0
0
LINE
5
155
100
AcDbEntity
8
0
100
AcDbLine
10
-285.02420742549197
20
48.287296555341584
30
0
11
-285.02707861744062
21
48.287278208557531
31
0
0
SPLINE
5
156
100
AcDbEntity
8
0
100
AcDbSpline
70
4
71
3
72
10
73
6
74
0
42
0.000000001
43
0.0000000001
44
0.0000000001
40
0
40
0
40
0
40
0
40
0.0018507131853151158
40
0.0018507131853151158
40
0.071562636676061234
40
0.071562636676061234
40
0.071562636676061234
40
0.071562636676061234
41
1
41
1
41
1
41
1
41
1
41
1
10
-285.02707861744062
20
48.287278208557531
30
0
10
-285.03303732990514
20
48.287238025529973
30
0
10
-285.08662773770936
20
48.286873258110454
30
0
10
-286.2401403217898
20
48.278831530095268
30
0
10
-287.36419403549803
20
48.266051415745551
30
0
10
-288.48757830641722
20
48.248661191702411
30
0
0
LINE
5
157
100
AcDbEntity
8
0
100
AcDbLine
10
-288.48757830641728
20
48.248661191702418
30
0
11
-292.48591806854762
21
48.16774725984903
31
0
0
SPLINE
5
158
100
AcDbEntity
8
0
100
AcDbSpline
70
4
71
3
72
10
73
6
74
0
42
0.000000001
43
0.0000000001
44
0.0000000001
40
0.15436339127718962
40
0.15436339127718962
40
0.15436339127718962
40
0.15436339127718962
40
0.33506895632704364
40
0.33506895632704364
40
0.62629505993560242
40
0.62629505993560242
40
0.62629505993560242
40
0.62629505993560242
41
1
41
1
41
1
41
1
41
1
41
1
10
-292.48591806854768
20
48.167747259849023
30
0
10
-295.38999458279943
20
48.095510501396461
30
0
10
-298.28125608465609
20
47.994980266920429
30
0
10
-305.75122076533916
20
47.67383890599789
30
0
10
-310.3596693251593
20
47.415479137860459
30
0
10
-314.99999999999989
20
47.104018428318284
30
0
0
ARC
5
159
100
AcDbEntity
8
0
100
AcDbCircle
10
-297.86749712413035
20
34.959993345656365
30
0
40
21.000000000000011
210
0
220
-0
230
1
100
AcDbArc
50
90
51
144.66985708941471
0
LINE
5
160
100
AcDbEntity
8
0
100
AcDbLine
10
-297.86749712413035
20
55.959993345656372
30
0
11
-190.2647301131955
21
55.959993345656365
31
0
0
ARC
5
161
100
AcDbEntity
8
0
100
AcDbCircle
10
-190.2647301131955
20
40.959993345656365
30
0
40
15.000000000000002
210
0
220
-0
230
1
100
AcDbArc
50
45.000000000000064
51
90
0
LINE
5
162
100
AcDbEntity
8
0
100
AcDbLine
10
-179.65812839539728
20
51.566595063454599
30
0
11
-169.65812839539726
21
41.566595063454571
31
0
0
ARC
5
163
100
AcDbEntity
8
0
100
AcDbCircle
10
-180.26473011319547
20
30.959993345656365
30
0
40
14.999999999999982
210
-0
220
0
230
1
100
AcDbArc
50
-45
51
44.999999999999986
0
ENDSEC
0
SECTION
2
OBJECTS
0
DICTIONARY
5
C
100
AcDbDictionary
3
ACAD_GROUP
350
D
3
ACAD_MLINESTYLE
350
17
0
DICTIONARY
5
D
100
AcDbDictionary
0
DICTIONARY
5
1A
330
C
100
AcDbDictionary
0
DICTIONARY
5
17
100
AcDbDictionary
0
ENDSEC
0
EOF
